Prisão Das Palavras (Don't Danm Me) - Cifrada

D.N.B


Letra: Alexandre Guimarães
Musica: Alexandre Guimarães e Daniel Loyzaga
Tabulatura: Alexandre Guimarães e Daniel Loyzaga

Intro:

Guitar Destorted 1:
E |----------------|-----------------|-----------------|-------------------|------------------|
B |----------------|-----------------|-----------------|-------------------|------------------|
G |----------------|-----------------|-----------------|-------------------|------------------|
D |---2-2-2-2-2----|----5-5-5-5-5----|----0-0-0-0-0----|----4-4-4-4-4-4----|Repete-Duas-Vezes-|
A |---0-0-0-0-0----|----3-3-3-3-3----|----5-5-5-5-5----|----2-2-2-2-2-2----|------------------|
E |---0-0-0-0-0----|----0-0-0-0-0----|----3-3-3-3-3----|----0-0-0-0-0-0----|------------------|

Guitar Destorted 2:
E |----------------|-----------------|-----------------|---------------------|----------------|
B |----------------|-----------------|-----------------|---------------------|----------------|
G |----------------|-----------------|-----------------|---------------------|---Acompanha----|
D |----------------|-----------------|-----------------|---------------------|----Guitar-1----|
A |---0-0-0-0-0----|----3-3-3-3-3----|-----------------|----2-2-2-2b3-2b3----|----------------|
E |----------------|-----------------|----3-3-3-3-3----|---------------------|----------------|

Guitar Destorted 1:
E |----------------|-----------------|-----------------|-------------------|------------------|
B |----------------|-----------------|-----------------|-------------------|------------------|
G |----------------|-----------------|-----------------|-------------------|--Repete-Durante--|
D |-----------2----|------------5----|-----------------|--------------4----|--Toda-a-Musica---|
A |-----------0----|------------3----|------------5----|--------------2----|------------------|
E |----------------|-----------------|------------3----|-------------------|------------------|

@Song; Part 1


Não me condene
Quando eu falo o que penso
Porque o silêncio é de ouro
Quando eu guardo aqui dentro
Estive onde estive
E eu vi o que vi
Eu coloco a caneta no papel
Porque tudo isto é parte de mim

Seja uma canção
Uma conversa casual
Para segurar o que minha língua fala
De reservas a suas palavras
Elas podem
Colocar-te em conflito
Minhas palavras podem
Perturbar-te com apenas um grito

É apenas por pouco tempo
Espero que você entenda
Eu nunca quis que isso acontecesse
Não queria ser um problema
Então me escondi
Em meu mundo
Eu peguei o que consegui
Eu chorei quando estive no escuro

Que lá dentro
Somos todos iguais
E Não importa quem você queira ser
Humano até animais
Então eu escalei
No seu mundo
Eu te chutei na mente
Porque eu sou a única testemunha

Guitar 2:

E |--------------|---------------|-------------------|-------------|--------------------------|
B |--------------|---------------|-------------------|-------------|---Repete-Varias-Vezes----|
G |--------------|---------------|-------------------|-------------|--Até-o-Final-da-Musica --|
D |----2---2-----|-----5---5-----|-------------------|---4---4-----|--------------------------|
A |--0---0---2---|---3---3---3---|-----5---5---------|-----2---2---|--------------------------|
E |--------------|---------------|---3---3---3---0---|-------------|--------------------------|

E |--------------|---------------|-------------------|---------------|------------------------|
B |--------------|---------------|-------------------|---------------|------------------------|
G |--------------|---------------|-------------------|---------------|----Repete-Uma-Vez------|
D |----2---2-----|-----5---5-----|-------------------|---4---4---2---|---No-Final-da-Musica---|
A |--0---0---2---|---3---3---3---|-----5---5---------|-----2---2-----|------------------------|
E |--------------|---------------|---3---3---3---0---|---------------|------------------------|

Guitar 1:

Am C G Em
E |------------0---------0---------3----------0-----------------------------------------------|
B |------------1---------1---------0----------0-----------------------------------------------|
G |------------2---------0---------0----------0-----------------------------------------------|
D |------------2---------2---------0----------2-----------------------------------------------|
A |----------0---------3--------------------2-------------------------------------------------|
E |------------------------------3------------------------------------------------------------|

@Song; Part 2


Mas olhe o que fizemos
aos jovens inocentes
Que ouviram quem estava falando
sobre os problemas da gente

O lixo coletado
pelos olhos da mente
E despejado no cérebro
isso o que você sente?

Algumas vezes eu quero matar
Algumas vezes eu quero morrer
Algumas vezes eu quero destruir
Algumas vezes eu quero chorar
Algumas vezes eu posso superar
Algumas vezes eu posso desistir
Algumas vezes eu posso dar
Você me diz a quem culpar

Como eu posso alguma vez te satisfazer
E como eu posso alguma vez te fazer sofrer


Guitar 1, Solo:

E |--5--7/--8--7--8^--8--7-----7--8--7b8--8--7--|--5--7/--8--7--8^--8-7-----7--8--7b8-8-7--5^-|
B |------------------------8-8------------------|-----------------------8-8---------------5---|
B |---------------------------------------------|---------------------------------------------|
G |---------------------------------------------|---------------------------------------------|
D |---------------------------------------------|---------------------------------------------|
A |---------------------------------------------|---------------------------------------------|
E |---------------------------------------------|---------------------------------------------|

Adicionar à playlist Tamanho Cifra Imprimir Corrigir

Posts relacionados

Ver mais posts