Electro Burn (cifrada)

Chopsycho


ELECTRO BURN


MÚSICA: MARCELO PAPA , ARTHUR , BIÉ
BANDA: CHOPSYCHO
TOM: F#m

INTRO: SOLO 1 E 2 2X SOLO 1 + F#m 2X SOLO 2 + A7 2X

F#m F#m F#m A7 4X
F#m Fm 4X

SOLO 1

E--------------------------------------------------------------
B--------------------------------------------------------------
G--------------------------------------------------------------
D -------------------------------------------------------------
A -----3------------3------------------------------------------
E --22-2454---22--2454-----------------------------------

SOLO 2
E--------------------------------------------------------------
B--------------------------------------------------------------
G--------------------------------------------------------------
D -------------------------------------------------------------
A -------6------------6----------------------------------------
E ----55-5787---55--5787----------------------------------

F#m Fm
THE SOUND THAT ALL OF THEM LIVE SOBER
F#m Fm
NOBODY MANAGES TO BE SLOW
F#m Fm
CRAZY NOISE PYRE AND TURN
F#m Fm
IF SEE YOU I HERE TALK , BURN

F#m Fm
OUR GALLEY ONLY HAS HAPPINESS
F#m Fm
IT WAS MANY PEOPLE WHO PRETEND NOT
F#m Fm
THE FIRE IS HOT AND LIGHT TURN
F#m Fm Em 9X
THE DREAM IN THE DAY ELECTRO BURN

REFRÃO:
F#m
ELECTRO BURN
A7
TAKE A LOT OF BEER, I AM MORE
F#M
ELECTRO BURN
A7
TAKE A LOT OF BEER, I AM MORE WHITE RUM

F#m Fm
THE SOUND THAT ALL OF THEM LIVE SOBER
F#m Fm
NOBODY MANAGES TO BE SLOW
F#m Fm
CRAZY NOISE PYRE AND TURN

F#m Fm Em 9X
IF SEE YOU I HERE TALK , BURN


REPETE REFRÃO + SOLO 3 3X
F#m Fm 4X

SOLO 3:

E----0012222222---------------5420---1111111---------------5420---1111111---------------5420------------
B-------------------2275555555-------------------2275555555--------------------2275555555------------------
G-------------------------------------------------------------------------------------------------------------------------
D------------------------------------------------------------------------------------------------------------------------
A-------------------------------------------------------------------------------------------------------------------------
E -------------------------------------------------------------------------------------------------------------------------
F#m Fm
OUR GALLEY ONLY HAS HAPPINESS
F#m Fm
IT WAS MANY PEOPLE WHO PRETEND NOT
F#m Fm
THE FIRE IS HOT AND LIGHT TURN
F#m Fm Em 9X
THE DREAM IN THE DAY ELECTRO BURN

DISTORÇÃO + BATERIA

REPETE REFRÃO ATÉ O FIM

SOLO: 4X + F#m

Enviar Tradução Adicionar à playlist Tamanho Cifra Imprimir Corrigir

Posts relacionados

Ver mais posts