SOLO INTRO:
|Obs.1: manter bend e
|palhetar várias vezes |Idem obs.1
A5 | F#5 | B5
e|---------|----------|------------------|----------|-------------|
B|-12b(14)-|-12b(14h)-|-12-10-12-12b(14)-|-12b(14h)-|-12-10-12-12-|
G|---------|----------|------------------|----------|-------------|
D|---------|----------|------------------|----------|-------------|
A|---------|----------|------------------|----------|-------------|
E|---------|----------|------------------|----------|-------------|
D5 E5
|------9----------------------|
|-(12)---12-10--12-10-9-10-12-|
|-----------------------------|
|-----------------------------|
|-----------------------------|
|-----------------------------|
|Idem Obs.1 |Idem Obs.1
A5 | F#5 | B5
|---------|----------|----12-----------|----------|-------------|
|-12b(14)-|-12b(14h)-|-12----12b(14)---|-12b(14h)-|-12-10-12-12-|
|---------|----------|-----------------|----------|-------------|
|---------|----------|-----------------|----------|-------------|
|---------|----------|-----------------|----------|-------------|
|---------|----------|-----------------|----------|-------------|
D5 E5
|------9----------------------|
|-(12)---12-10--12-10-9-10-12-|
|-----------------------------|
|-----------------------------|
|-----------------------------|
|-----------------------------|

A F#m
Eu já não vou mais andar a pé
Bm D E
Porque eu estou aprendendo a voar
A F#m
E no meu carro eu ponho um som pra viajar
Bm D5 E5 A5
E viajo pelas estradas que me levam até o mar

A5 F#5
(Estradas que me levam até o mar)
B5 D5 E5 A5
E viajo pelas estradas que me levam até omar
(Estradas que me levam até o mar)
A5 F#5
(Estradas que me levam até o mar)
B5 D5 E5 A
E viajo pelas estradas que me levam até omar
(Estradas que me levam até o mar) (mar)

A F#m
É o meu destino, eu vou chegar
Bm D E A
Nem a polícia e muito menos o radar vai me parar
A F#m Bm
Mas hoje eu quero correr, só que meu carro
D5 E5 A5
É um Corcel setenta e dois movido a gás

A5 F#5
(Corcel setenta e dois movido a gás)
B5 D5 E5 A5
Só que meu carro é um Corcel setenta e dois movidoa gás
(Corcel setenta e dois movido a gás)
A5 F#5
(Corcel setenta e dois movido a gás)
B5 D5 E5 A
Só que meu carro é um Corcel setenta e dois movidoa gás
(Corcel setenta e dois movido a gás)

A F#m
|-11--11-11-11-11-11--------9---------------------|
|-11b-----------------10-12---12-10-9-10-9--------|
|------------------------------------------11-9---|
|-------------------------------------------------|
|-------------------------------------------------|
|-------------------------------------------------|
| Bm D5 E5
|-------------------------------------------------|
|-------/15-14p12--/15-14p12--/15-14--17b(19)-17--|
|-11p9--------------------------------------------|
|-------------------------------------------------|
|-------------------------------------------------|
|-------------------------------------------------|
|
| A5 |Obs.1 F#5 |obs.1 B5
|---------|----------|------------------|----------|-------------|
|-12b(14)-|-12b(14h)-|-12-10-12-12b(14)-|-12b(14h)-|-12-10-12-12-|
|---------|----------|------------------|----------|-------------|
|---------|----------|------------------|----------|-------------|
|---------|----------|------------------|----------|-------------|
|---------|----------|------------------|----------|-------------|
| D5 E5
|------9----------------------|
|-(12)---12-10--12-10-9-10-12-|
|-----------------------------|
|-----------------------------|
|-----------------------------|
|-----------------------------|


A5 F#5
(Estradas que me levam até o mar)
B5 D5 E5 A5
E viajo pelas estradas que me levam até o mar
(Corcel setenta e dois movido a gás)
A5 F#5
(Estradas que me levam até o mar)
B5 D5 E5 A5
Só que meu carro é um Corcel setenta e dois movidoa gás
(Corcel setenta e dois movido a gás) (gás)
Legenda:
B|--12b(14)-- bend de 1 tom apartir do 12º traste da segundacorda
G|--12b(14h)- fazer bend de 1 tom, mas não soltar imediatamente
G|--(12)-- palhetar várias vezes corda
A|--14/15- slide, não palhetar a segunda nota

Adicionar à playlist Tamanho Cifra Imprimir Corrigir

Posts relacionados

Ver mais no Blog